HELP!

Discuss playing styles and techniques, or share your own here.
Post Reply
arpeggio_owen
Member
Member
Posts: 132
Joined: Fri Jul 29, 2005 3:40 am

PLEASE! i need the melody from blue bossa asap, it is very important for my jazz course.


much, much, much appreciation
User avatar
leigh01
Member
Member
Posts: 907
Joined: Fri Dec 08, 2006 10:18 am

Ive never heard of this! but I hope this tabs right:


Duration and Tab Legend
---------------
W - whole
H - half
Q - quarter
E - 8th
. - note dotted
L - tied note


Lead Guitar.
H. Q Q. E E Q E

E||---R---|---R---|---R---|--R-----------------||---3--------------------|
B||---R---|---R---|---R---|--R-----------------||----------6--4--3-------|
G||---R---|---R---|---R---|--R------------0----||*--------------------5--|
D||---R---|---R---|---R---|--R-----------------||*-----------------------|
A||---R---|---R---|---R---|--R-----------------||------------------------|
E||---R---|---R---|---R---|--R-----------------||------------------------|


H. Q H Q. E W
--------------------|-----------3---------|-------------------|
--------------------|------------------6--|--L----------------|
--L------------3----|---------------------|-------------------|
--------------------|--6------------------|-------------------|
--------------------|---------------------|-------------------|
--------------------|---------------------|-------------------|


Q. E E Q E H. Q H Q. E
-----------------------|--------------------|---------------------|
--6------4--3----------|--------------------|-----------6------4--|
---------------5----3--|--L-----------------|---------------------|
-----------------------|---------------6----|--5------------------|
-----------------------|--------------------|---------------------|
-----------------------|--------------------|---------------------|


W Q. E E Q E H. Q
-------------------|-----------------------|--------------------|
--L----------------|--4--------------------|--------------------|
-------------------|---------6--5--3-------|--------------------|
-------------------|--------------------6--|--L------------4----|
-------------------|-----------------------|--------------------|
-------------------|-----------------------|--------------------|


Q E E E E Q W Q E E H
------------------------|-------------------|----------------------|
------------------------|-------------------|----------------------|
----------3--L----------|-------------------|----------3--L--------|
--4----3--------3--6----|--L----------------|--6----5--------------|
------------------------|-------------------|----------------------|
------------------------|-------------------|----------------------|

(-------Ending I------)
Q E E Q. E W H. Q
-----------------------|-------------------|---------------------||
-----------------------|-------------------|---------------------||
----------3--L---------|-------------------|---------------0----*||
--6----5------------6--|--5----------------|--L-----------------*||
-----------------------|-------------------|---------------------||
-----------------------|-------------------|---------------------||

(------Ending II------)
H. Q
---------------------||
---------------------||
---------------0----*||
--5-----------------*||
---------------------||
---------------------||

Play each ending twice.

Rythm Guitar.
Intro
Q Q E Q E Q Q E Q E Q Q E Q E
E||------------------------|-----------------------|-----------------------|
B||--------4-------3----3--|-------4-------3----3--|-------4-------3----3--|
G||--------3-------3----3--|-------3-------3----3--|-------3-------3----3--|
D||--------5-------5----5--|-------5-------5----5--|-------5-------5----5--|
A||--3---------------------|--3--------------------|--3--------------------|
E||-------------3----------|------------3----------|------------3----------|


Chorus
Q Q E Q E Q Q E Q E Q Q E Q E
-----------------------||--------------------------|-----------------------|
-------4-------3----3--||----------4-------3----3--|-------4-------3----3--|
-------3-------3----3--||*---------3-------3----3--|-------3-------3----3--|
-------5-------5----5--||*---------5-------5----5--|-------5-------5----5--|
--3--------------------||---3----------------------|--3--------------------|
------------3----------||---------------3----------|------------3----------|


Q Q E Q E Q Q E Q E Q Q E Q E
-----------------------|-----------------------|-----------------------|
-------1-------3----1--|-------1-------4----4--|-------6-------6----6--|
-------1-------1----1--|-------1-------1----1--|-------5-------5----5--|
-------1-------1----1--|-------1-------1----1--|-------6-------6----6--|
------------3----------|------------3----------|--5--------------------|
--1--------------------|--1--------------------|------------4----------|


Q Q E Q E Q Q E Q E Q Q Q Q
-----------------------|-----------------------|----------------------|
-------3-------3----3--|-------4-------3----3--|-------4----5----6----|
-------4-------4----4--|-------3-------3----3--|-------3----4----5----|
-------3-------3----3--|-------5-------5----5--|-------5----6----7----|
------------5----------|--3--------------------|--3----3----4----5----|
--3--------------------|------------3----------|----------------------|


Q Q E Q E Q Q E Q E Q Q E Q E
-----------------------|-----------------------|-----------------------|
-------7-------7----7--|-------4-------6----6--|-------6-------6----6--|
-------6-------6----6--|-------5-------5----5--|-------5-------5----5--|
-------8-------8----8--|-------4-------4----4--|-------6-------6----6--|
--6--------------------|------------6----------|--4--------------------|
------------6----------|--4--------------------|------------4----------|


Q Q E Q E Q Q E Q E Q Q E Q E
-----------------------|-----------------------|-----------------------|
-------6-------6-------|-------6-------6----6--|-------3-------3----3--|
-------5-------5-------|-------5-------5----5--|-------4-------4----4--|
-------6-------6-------|-------6-------6----6--|-------3-------3----3--|
--4-----------------4--|--5--------------------|------------5----------|
------------4----------|------------4----------|--3--------------------|

(-------Ending I-------) (-------Ending II-------)
Q Q E Q E Q Q Q Q Q E E E E E E
----------------------|-----------------------||-------------------------||
--------------3----3--|--6---------3----------||--6----------------------||
------3-------3----3--|--5---------4---------*||--5---------------------*||
------5-------5----5--|--6---------3---------*||--6---------------------*||
--3-------------------|--5--------------0-----||--5----------------2-----||
-----------3----------|------------3----------||-------3-----5-----------||


Play each ending twice.

And heres the link from where I got it: http://www.ultimate-guitar.com/tabs/k/k ... sa_tab.htm
arpeggio_owen
Member
Member
Posts: 132
Joined: Fri Jul 29, 2005 3:40 am

cheers dude, much appreciated
User avatar
leigh01
Member
Member
Posts: 907
Joined: Fri Dec 08, 2006 10:18 am

:)
Post Reply